ISO-10303-21;
HEADER;
FILE_DESCRIPTION (( 'STEP AP214' ),
    '1' );
FILE_NAME ('FULLVAC RC1KF5025.STEP',
    '2019-04-24T08:37:46',
    ( '' ),
    ( '' ),
    'SwSTEP 2.0',
    'SolidWorks 2017',
    '' );
FILE_SCHEMA (( 'AUTOMOTIVE_DESIGN' ));
ENDSEC;

DATA;
#1 = CARTESIAN_POINT ( 'NONE',  ( 2.540000000000000000, 5.658629075561449600E-016, -1.398698817326410200E-015 ) ) ;
#2 = AXIS2_PLACEMENT_3D ( 'NONE', #181, #9, #88 ) ;
#3 = DIRECTION ( 'NONE',  ( 0.0000000000000000000, 0.0000000000000000000, -1.000000000000000000 ) ) ;
#4 = DIRECTION ( 'NONE',  ( -1.000000000000000000, 0.0000000000000000000, 0.0000000000000000000 ) ) ;
#5 = ORIENTED_EDGE ( 'NONE', *, *, #240, .T. ) ;
#6 = DIRECTION ( 'NONE',  ( 1.000000000000000000, 0.0000000000000000000, 0.0000000000000000000 ) ) ;
#7 = CARTESIAN_POINT ( 'NONE',  ( 5.099999999984913000, 0.0000000000000000000, 30.35910346561516300 ) ) ;
#8 = AXIS2_PLACEMENT_3D ( 'NONE', #331, #230, #146 ) ;
#9 = DIRECTION ( 'NONE',  ( -1.000000000000000000, -0.0000000000000000000, -0.0000000000000000000 ) ) ;
#10 = PRESENTATION_LAYER_ASSIGNMENT (  '', '', ( #87 ) ) ;
#11 = FACE_OUTER_BOUND ( 'NONE', #340, .T. ) ;
#12 = SURFACE_SIDE_STYLE ('',( #285 ) ) ;
#13 = ADVANCED_FACE ( 'NONE', ( #167, #57 ), #183, .F. ) ;
#14 = CARTESIAN_POINT ( 'NONE',  ( 3.200000000015086800, 0.0000000000000000000, 0.0000000000000000000 ) ) ;
#15 = AXIS2_PLACEMENT_3D ( 'NONE', #47, #137, #134 ) ;
#16 = ORIENTED_EDGE ( 'NONE', *, *, #51, .T. ) ;
#17 = FACE_OUTER_BOUND ( 'NONE', #245, .T. ) ;
#18 = MECHANICAL_DESIGN_GEOMETRIC_PRESENTATION_REPRESENTATION (  '', ( #87 ), #169 ) ;
#19 = APPLICATION_CONTEXT ( 'automotive_design' ) ;
#20 = SURFACE_STYLE_FILL_AREA ( #241 ) ;
#21 = ADVANCED_FACE ( 'NONE', ( #265, #86 ), #54, .F. ) ;
#22 = EDGE_LOOP ( 'NONE', ( #52 ) ) ;
#23 = CIRCLE ( 'NONE', #166, 37.45000000000000300 ) ;
#24 = ORIENTED_EDGE ( 'NONE', *, *, #74, .F. ) ;
#25 = UNCERTAINTY_MEASURE_WITH_UNIT (LENGTH_MEASURE( 1.000000000000000100E-005 ), #129, 'distance_accuracy_value', 'NONE');
#26 = DIRECTION ( 'NONE',  ( 0.0000000000000000000, 0.0000000000000000000, 1.000000000000000000 ) ) ;
#27 = VERTEX_POINT ( 'NONE', #264 ) ;
#28 = EDGE_LOOP ( 'NONE', ( #49 ) ) ;
#29 = CIRCLE ( 'NONE', #274, 11.05000000000000100 ) ;
#30 = AXIS2_PLACEMENT_3D ( 'NONE', #14, #61, #308 ) ;
#31 = DIRECTION ( 'NONE',  ( 0.0000000000000000000, 0.0000000000000000000, -1.000000000000000000 ) ) ;
#32 = EDGE_LOOP ( 'NONE', ( #225 ) ) ;
#33 = DIRECTION ( 'NONE',  ( 1.000000000000000000, -0.0000000000000000000, 0.0000000000000000000 ) ) ;
#34 = FACE_OUTER_BOUND ( 'NONE', #250, .T. ) ;
#35 = DIRECTION ( 'NONE',  ( -1.000000000000000000, 0.0000000000000000000, 0.0000000000000000000 ) ) ;
#36 =( NAMED_UNIT ( * ) SI_UNIT ( $, .STERADIAN. ) SOLID_ANGLE_UNIT ( ) );
#37 = CARTESIAN_POINT ( 'NONE',  ( 0.0000000000000000000, 0.0000000000000000000, -37.45000000000000300 ) ) ;
#38 = FACE_BOUND ( 'NONE', #213, .T. ) ;
#39 =( LENGTH_UNIT ( ) NAMED_UNIT ( * ) SI_UNIT ( .MILLI., .METRE. ) );
#40 = CLOSED_SHELL ( 'NONE', ( #90, #320, #163, #164, #62, #290, #341, #130, #216, #121, #13, #157, #221, #235, #21 ) ) ;
#41 = CIRCLE ( 'NONE', #8, 25.40000000001925100 ) ;
#42 = VERTEX_POINT ( 'NONE', #91 ) ;
#43 =( LENGTH_UNIT ( ) NAMED_UNIT ( * ) SI_UNIT ( .MILLI., .METRE. ) );
#44 = CIRCLE ( 'NONE', #70, 26.16000000000000000 ) ;
#45 = FACE_OUTER_BOUND ( 'NONE', #96, .T. ) ;
#46 = AXIS2_PLACEMENT_3D ( 'NONE', #81, #298, #173 ) ;
#47 = CARTESIAN_POINT ( 'NONE',  ( 3.200000000015085900, 0.0000000000000000000, 0.0000000000000000000 ) ) ;
#48 = CARTESIAN_POINT ( 'NONE',  ( 39.89999999999999900, 0.0000000000000000000, 0.0000000000000000000 ) ) ;
#49 = ORIENTED_EDGE ( 'NONE', *, *, #295, .F. ) ;
#50 = PLANE ( 'NONE',  #133 ) ;
#51 = EDGE_CURVE ( 'NONE', #249, #249, #23, .T. ) ;
#52 = ORIENTED_EDGE ( 'NONE', *, *, #295, .T. ) ;
#53 = CARTESIAN_POINT ( 'NONE',  ( 2.540000000008450600, 0.0000000000000000000, 0.0000000000000000000 ) ) ;
#54 = CONICAL_SURFACE ( 'NONE', #46, 23.75000000001947200, 0.4095023249988175000 ) ;
#55 = DIRECTION ( 'NONE',  ( 0.0000000000000000000, 0.0000000000000000000, 1.000000000000000000 ) ) ;
#56 = DIRECTION ( 'NONE',  ( 0.0000000000000000000, 0.0000000000000000000, -1.000000000000000000 ) ) ;
#57 = FACE_OUTER_BOUND ( 'NONE', #109, .T. ) ;
#58 = CARTESIAN_POINT ( 'NONE',  ( 37.35999999999999900, 0.0000000000000000000, 1.334865011070619900E-016 ) ) ;
#59 = DIRECTION ( 'NONE',  ( 0.0000000000000000000, 0.0000000000000000000, 1.000000000000000000 ) ) ;
#60 = FILL_AREA_STYLE ('',( #311 ) ) ;
#61 = DIRECTION ( 'NONE',  ( 1.000000000000000000, -0.0000000000000000000, -0.0000000000000000000 ) ) ;
#62 = ADVANCED_FACE ( 'NONE', ( #192, #168 ), #277, .T. ) ;
#63 = PRESENTATION_STYLE_ASSIGNMENT (( #190 ) ) ;
#64 = EDGE_LOOP ( 'NONE', ( #255 ) ) ;
#65 = DIRECTION ( 'NONE',  ( 0.0000000000000000000, 0.0000000000000000000, 1.000000000000000000 ) ) ;
#66 = CYLINDRICAL_SURFACE ( 'NONE', #325, 11.05000000000000100 ) ;
#67 = CARTESIAN_POINT ( 'NONE',  ( 0.0000000000000000000, 0.0000000000000000000, 0.0000000000000000000 ) ) ;
#68 = AXIS2_PLACEMENT_3D ( 'NONE', #138, #251, #26 ) ;
#69 = ORIENTED_EDGE ( 'NONE', *, *, #328, .F. ) ;
#70 = AXIS2_PLACEMENT_3D ( 'NONE', #148, #282, #261 ) ;
#71 = VERTEX_POINT ( 'NONE', #120 ) ;
#72 = EDGE_LOOP ( 'NONE', ( #209 ) ) ;
#73 = CIRCLE ( 'NONE', #330, 11.05000000000000100 ) ;
#74 = EDGE_CURVE ( 'NONE', #353, #353, #219, .T. ) ;
#75 = ORIENTED_EDGE ( 'NONE', *, *, #159, .F. ) ;
#76 = CARTESIAN_POINT ( 'NONE',  ( 0.0000000000000000000, 0.0000000000000000000, 0.0000000000000000000 ) ) ;
#77 = DIRECTION ( 'NONE',  ( 1.000000000000000000, 0.0000000000000000000, 0.0000000000000000000 ) ) ;
#78 = AXIS2_PLACEMENT_3D ( 'NONE', #48, #248, #271 ) ;
#79 = SHAPE_DEFINITION_REPRESENTATION ( #115, #280 ) ;
#80 = EDGE_LOOP ( 'NONE', ( #182 ) ) ;
#81 = CARTESIAN_POINT ( 'NONE',  ( 2.540000000008447100, 0.0000000000000000000, 0.0000000000000000000 ) ) ;
#82 = FACE_OUTER_BOUND ( 'NONE', #64, .T. ) ;
#83 = PRESENTATION_LAYER_ASSIGNMENT (  '', '', ( #239 ) ) ;
#84 = CARTESIAN_POINT ( 'NONE',  ( 34.75736835487440100, 0.0000000000000000000, 0.0000000000000000000 ) ) ;
#85 = EDGE_LOOP ( 'NONE', ( #16 ) ) ;
#86 = FACE_OUTER_BOUND ( 'NONE', #228, .T. ) ;
#87 = STYLED_ITEM ( 'NONE', ( #63 ), #280 ) ;
#88 = DIRECTION ( 'NONE',  ( 0.0000000000000000000, 0.0000000000000000000, -1.000000000000000000 ) ) ;
#89 = DIRECTION ( 'NONE',  ( 1.000000000000000000, -0.0000000000000000000, -0.0000000000000000000 ) ) ;
#90 = ADVANCED_FACE ( 'NONE', ( #38, #17 ), #97, .T. ) ;
#91 = CARTESIAN_POINT ( 'NONE',  ( 34.75736835487440100, 0.0000000000000000000, -12.69999999999999900 ) ) ;
#92 = AXIS2_PLACEMENT_3D ( 'NONE', #160, #343, #238 ) ;
#93 = ORIENTED_EDGE ( 'NONE', *, *, #217, .T. ) ;
#94 =( NAMED_UNIT ( * ) PLANE_ANGLE_UNIT ( ) SI_UNIT ( $, .RADIAN. ) );
#95 = VERTEX_POINT ( 'NONE', #335 ) ;
#96 = EDGE_LOOP ( 'NONE', ( #75 ) ) ;
#97 = CONICAL_SURFACE ( 'NONE', #203, 25.40000000001925100, 0.4439829731990803700 ) ;
#98 = AXIS2_PLACEMENT_3D ( 'NONE', #67, #6, #206 ) ;
#99 = VERTEX_POINT ( 'NONE', #232 ) ;
#100 = ORIENTED_EDGE ( 'NONE', *, *, #313, .T. ) ;
#101 = CARTESIAN_POINT ( 'NONE',  ( 0.0000000000000000000, 0.0000000000000000000, 0.0000000000000000000 ) ) ;
#102 = DIRECTION ( 'NONE',  ( 0.0000000000000000000, 0.0000000000000000000, 1.000000000000000000 ) ) ;
#103 = CARTESIAN_POINT ( 'NONE',  ( 36.69999999998459800, 0.0000000000000000000, 0.0000000000000000000 ) ) ;
#104 = CARTESIAN_POINT ( 'NONE',  ( 5.100000000009157700, 0.0000000000000000000, 0.0000000000000000000 ) ) ;
#105 = CIRCLE ( 'NONE', #291, 12.69999999999999900 ) ;
#106 = CARTESIAN_POINT ( 'NONE',  ( 37.35999999999999900, 0.0000000000000000000, 0.0000000000000000000 ) ) ;
#107 = EDGE_CURVE ( 'NONE', #114, #114, #260, .T. ) ;
#108 = VERTEX_POINT ( 'NONE', #7 ) ;
#109 = EDGE_LOOP ( 'NONE', ( #69 ) ) ;
#110 = CARTESIAN_POINT ( 'NONE',  ( 39.89999999999999900, 0.0000000000000000000, 0.0000000000000000000 ) ) ;
#111 = CYLINDRICAL_SURFACE ( 'NONE', #78, 13.08000000000000000 ) ;
#112 = CARTESIAN_POINT ( 'NONE',  ( 36.69999999998459800, 0.0000000000000000000, 0.0000000000000000000 ) ) ;
#113 = DIRECTION ( 'NONE',  ( 0.0000000000000000000, 0.0000000000000000000, -1.000000000000000000 ) ) ;
#114 = VERTEX_POINT ( 'NONE', #158 ) ;
#115 = PRODUCT_DEFINITION_SHAPE ( 'NONE', 'NONE',  #126 ) ;
#116 = CARTESIAN_POINT ( 'NONE',  ( 36.69999999998459800, 0.0000000000000000000, -19.95000000000412400 ) ) ;
#117 = FACE_OUTER_BOUND ( 'NONE', #337, .T. ) ;
#118 = CARTESIAN_POINT ( 'NONE',  ( 39.89999999999999900, 0.0000000000000000000, 0.0000000000000000000 ) ) ;
#119 = EDGE_CURVE ( 'NONE', #345, #345, #195, .T. ) ;
#120 = CARTESIAN_POINT ( 'NONE',  ( 2.540000000000000000, 0.0000000000000000000, -26.16000000000000000 ) ) ;
#121 = ADVANCED_FACE ( 'NONE', ( #268, #34 ), #111, .F. ) ;
#122 = FACE_BOUND ( 'NONE', #140, .T. ) ;
#123 = CARTESIAN_POINT ( 'NONE',  ( 31.79999999999084900, 0.0000000000000000000, -12.69999999998075100 ) ) ;
#124 = APPLICATION_PROTOCOL_DEFINITION ( 'draft international standard', 'automotive_design', 1998, #19 ) ;
#125 = EDGE_CURVE ( 'NONE', #99, #99, #41, .T. ) ;
#126 = PRODUCT_DEFINITION ( 'UNKNOWN', '', #150, #273 ) ;
#127 = ORIENTED_EDGE ( 'NONE', *, *, #74, .T. ) ;
#128 =( NAMED_UNIT ( * ) SI_UNIT ( $, .STERADIAN. ) SOLID_ANGLE_UNIT ( ) );
#129 =( LENGTH_UNIT ( ) NAMED_UNIT ( * ) SI_UNIT ( .MILLI., .METRE. ) );
#130 = ADVANCED_FACE ( 'NONE', ( #143, #82 ), #50, .T. ) ;
#131 = AXIS2_PLACEMENT_3D ( 'NONE', #103, #247, #323 ) ;
#132 = COLOUR_RGB ( '',0.7450980392156862900, 0.7450980392156862900, 0.7450980392156862900 ) ;
#133 = AXIS2_PLACEMENT_3D ( 'NONE', #180, #278, #303 ) ;
#134 = DIRECTION ( 'NONE',  ( 0.0000000000000000000, 0.0000000000000000000, 1.000000000000000000 ) ) ;
#135 = EDGE_LOOP ( 'NONE', ( #127 ) ) ;
#136 = CYLINDRICAL_SURFACE ( 'NONE', #287, 37.45000000000000300 ) ;
#137 = DIRECTION ( 'NONE',  ( -1.000000000000000000, 0.0000000000000000000, 0.0000000000000000000 ) ) ;
#138 = CARTESIAN_POINT ( 'NONE',  ( 39.89999999999999900, 0.0000000000000000000, 0.0000000000000000000 ) ) ;
#139 = COLOUR_RGB ( '',0.7450980392156862900, 0.7450980392156862900, 0.7450980392156862900 ) ;
#140 = EDGE_LOOP ( 'NONE', ( #354 ) ) ;
#141 = AXIS2_PLACEMENT_3D ( 'NONE', #177, #142, #326 ) ;
#142 = DIRECTION ( 'NONE',  ( 1.000000000000000000, -0.0000000000000000000, 0.0000000000000000000 ) ) ;
#143 = FACE_BOUND ( 'NONE', #147, .T. ) ;
#144 = PLANE ( 'NONE',  #141 ) ;
#145 = UNCERTAINTY_MEASURE_WITH_UNIT (LENGTH_MEASURE( 1.000000000000000100E-005 ), #43, 'distance_accuracy_value', 'NONE');
#146 = DIRECTION ( 'NONE',  ( 0.0000000000000000000, 0.0000000000000000000, 1.000000000000000000 ) ) ;
#147 = EDGE_LOOP ( 'NONE', ( #194 ) ) ;
#148 = CARTESIAN_POINT ( 'NONE',  ( 0.0000000000000000000, 0.0000000000000000000, 0.0000000000000000000 ) ) ;
#149 = CIRCLE ( 'NONE', #2, 26.16000000000000000 ) ;
#150 = PRODUCT_DEFINITION_FORMATION_WITH_SPECIFIED_SOURCE ( 'ANY', '', #293, .NOT_KNOWN. ) ;
#151 = CARTESIAN_POINT ( 'NONE',  ( 39.89999999999999900, 0.0000000000000000000, 19.94999999999999900 ) ) ;
#152 = DIRECTION ( 'NONE',  ( 0.0000000000000000000, 0.0000000000000000000, 1.000000000000000000 ) ) ;
#153 = VERTEX_POINT ( 'NONE', #231 ) ;
#154 = ORIENTED_EDGE ( 'NONE', *, *, #125, .F. ) ;
#155 = CARTESIAN_POINT ( 'NONE',  ( 5.099999999984913000, 0.0000000000000000000, 0.0000000000000000000 ) ) ;
#156 = CIRCLE ( 'NONE', #246, 30.35910346561516300 ) ;
#157 = ADVANCED_FACE ( 'NONE', ( #315, #210 ), #179, .T. ) ;
#158 = CARTESIAN_POINT ( 'NONE',  ( 39.89999999999999900, 0.0000000000000000000, 13.08000000000000000 ) ) ;
#159 = EDGE_CURVE ( 'NONE', #27, #27, #29, .T. ) ;
#160 = CARTESIAN_POINT ( 'NONE',  ( 0.0000000000000000000, 0.0000000000000000000, 0.0000000000000000000 ) ) ;
#161 = AXIS2_PLACEMENT_3D ( 'NONE', #1, #254, #279 ) ;
#162 = EDGE_LOOP ( 'NONE', ( #237 ) ) ;
#163 = ADVANCED_FACE ( 'NONE', ( #202, #301 ), #329, .T. ) ;
#164 = ADVANCED_FACE ( 'NONE', ( #198, #176 ), #333, .T. ) ;
#165 = VERTEX_POINT ( 'NONE', #151 ) ;
#166 = AXIS2_PLACEMENT_3D ( 'NONE', #76, #77, #197 ) ;
#167 = FACE_OUTER_BOUND ( 'NONE', #275, .T. ) ;
#168 = FACE_OUTER_BOUND ( 'NONE', #351, .T. ) ;
#169 =( GEOMETRIC_REPRESENTATION_CONTEXT ( 3 ) GLOBAL_UNCERTAINTY_ASSIGNED_CONTEXT ( ( #25 ) ) GLOBAL_UNIT_ASSIGNED_CONTEXT ( ( #129, #316, #266 ) ) REPRESENTATION_CONTEXT ( 'NONE', 'WORKASPACE' ) );
#170 = EDGE_CURVE ( 'NONE', #174, #174, #233, .T. ) ;
#171 = FACE_BOUND ( 'NONE', #32, .T. ) ;
#172 = PRODUCT_RELATED_PRODUCT_CATEGORY ( 'part', '', ( #293 ) ) ;
#173 = DIRECTION ( 'NONE',  ( 0.0000000000000000000, 0.0000000000000000000, 1.000000000000000000 ) ) ;
#174 = VERTEX_POINT ( 'NONE', #123 ) ;
#175 = ORIENTED_EDGE ( 'NONE', *, *, #119, .T. ) ;
#176 = FACE_OUTER_BOUND ( 'NONE', #135, .T. ) ;
#177 = CARTESIAN_POINT ( 'NONE',  ( 0.0000000000000000000, -1.963283835118420200E-015, 7.905459899422560000E-016 ) ) ;
#178 = ORIENTED_EDGE ( 'NONE', *, *, #51, .F. ) ;
#179 = PLANE ( 'NONE',  #212 ) ;
#180 = CARTESIAN_POINT ( 'NONE',  ( 39.89999999999999900, -2.913971193241879800E-016, -7.124026915581379500E-016 ) ) ;
#181 = CARTESIAN_POINT ( 'NONE',  ( 2.540000000000000000, 0.0000000000000000000, 0.0000000000000000000 ) ) ;
#182 = ORIENTED_EDGE ( 'NONE', *, *, #259, .T. ) ;
#183 = CYLINDRICAL_SURFACE ( 'NONE', #348, 26.16000000000000000 ) ;
#184 = CARTESIAN_POINT ( 'NONE',  ( 39.89999999999999900, 0.0000000000000000000, 0.0000000000000000000 ) ) ;
#185 =( GEOMETRIC_REPRESENTATION_CONTEXT ( 3 ) GLOBAL_UNCERTAINTY_ASSIGNED_CONTEXT ( ( #196 ) ) GLOBAL_UNIT_ASSIGNED_CONTEXT ( ( #39, #334, #36 ) ) REPRESENTATION_CONTEXT ( 'NONE', 'WORKASPACE' ) );
#186 = DIRECTION ( 'NONE',  ( 0.0000000000000000000, 0.0000000000000000000, 1.000000000000000000 ) ) ;
#187 = FACE_OUTER_BOUND ( 'NONE', #218, .T. ) ;
#188 = ORIENTED_EDGE ( 'NONE', *, *, #328, .T. ) ;
#189 = SURFACE_SIDE_STYLE ('',( #20 ) ) ;
#190 = SURFACE_STYLE_USAGE ( .BOTH. , #189 ) ;
#191 = EDGE_CURVE ( 'NONE', #42, #42, #105, .T. ) ;
#192 = FACE_BOUND ( 'NONE', #28, .T. ) ;
#193 = VERTEX_POINT ( 'NONE', #339 ) ;
#194 = ORIENTED_EDGE ( 'NONE', *, *, #107, .T. ) ;
#195 = CIRCLE ( 'NONE', #342, 13.08000000000000000 ) ;
#196 = UNCERTAINTY_MEASURE_WITH_UNIT (LENGTH_MEASURE( 1.000000000000000100E-005 ), #39, 'distance_accuracy_value', 'NONE');
#197 = DIRECTION ( 'NONE',  ( 0.0000000000000000000, 0.0000000000000000000, -1.000000000000000000 ) ) ;
#198 = FACE_BOUND ( 'NONE', #243, .T. ) ;
#199 = DIRECTION ( 'NONE',  ( -1.000000000000000000, 0.0000000000000000000, 0.0000000000000000000 ) ) ;
#200 = ORIENTED_EDGE ( 'NONE', *, *, #159, .T. ) ;
#201 = DIRECTION ( 'NONE',  ( -1.000000000000000000, 0.0000000000000000000, 0.0000000000000000000 ) ) ;
#202 = FACE_BOUND ( 'NONE', #296, .T. ) ;
#203 = AXIS2_PLACEMENT_3D ( 'NONE', #104, #199, #350 ) ;
#204 = EDGE_LOOP ( 'NONE', ( #175 ) ) ;
#205 = SURFACE_STYLE_USAGE ( .BOTH. , #12 ) ;
#206 = DIRECTION ( 'NONE',  ( 0.0000000000000000000, 0.0000000000000000000, -1.000000000000000000 ) ) ;
#207 = AXIS2_PLACEMENT_3D ( 'NONE', #184, #336, #186 ) ;
#208 = CARTESIAN_POINT ( 'NONE',  ( 0.0000000000000000000, 0.0000000000000000000, 0.0000000000000000000 ) ) ;
#209 = ORIENTED_EDGE ( 'NONE', *, *, #313, .F. ) ;
#210 = FACE_OUTER_BOUND ( 'NONE', #204, .T. ) ;
#211 = DIRECTION ( 'NONE',  ( 1.000000000000000000, -0.0000000000000000000, -0.0000000000000000000 ) ) ;
#212 = AXIS2_PLACEMENT_3D ( 'NONE', #58, #33, #3 ) ;
#213 = EDGE_LOOP ( 'NONE', ( #272 ) ) ;
#214 = APPLICATION_CONTEXT ( 'automotive_design' ) ;
#215 = APPLICATION_PROTOCOL_DEFINITION ( 'draft international standard', 'automotive_design', 1998, #214 ) ;
#216 = ADVANCED_FACE ( 'NONE', ( #122, #310 ), #144, .F. ) ;
#217 = EDGE_CURVE ( 'NONE', #153, #153, #318, .T. ) ;
#218 = EDGE_LOOP ( 'NONE', ( #322 ) ) ;
#219 = CIRCLE ( 'NONE', #131, 19.95000000000412400 ) ;
#220 = AXIS2_PLACEMENT_3D ( 'NONE', #281, #4, #113 ) ;
#221 = ADVANCED_FACE ( 'NONE', ( #171, #117 ), #253, .F. ) ;
#222 = EDGE_LOOP ( 'NONE', ( #200 ) ) ;
#223 = CYLINDRICAL_SURFACE ( 'NONE', #98, 12.69999999999999900 ) ;
#224 = MECHANICAL_DESIGN_GEOMETRIC_PRESENTATION_REPRESENTATION (  '', ( #239 ), #185 ) ;
#225 = ORIENTED_EDGE ( 'NONE', *, *, #217, .F. ) ;
#226 = CYLINDRICAL_SURFACE ( 'NONE', #207, 19.94999999999999900 ) ;
#227 = CARTESIAN_POINT ( 'NONE',  ( 5.099999999999999600, 0.0000000000000000000, -12.69999999999999900 ) ) ;
#228 = EDGE_LOOP ( 'NONE', ( #93 ) ) ;
#229 = DIRECTION ( 'NONE',  ( 1.000000000000000000, 0.0000000000000000000, 0.0000000000000000000 ) ) ;
#230 = DIRECTION ( 'NONE',  ( 1.000000000000000000, -0.0000000000000000000, -0.0000000000000000000 ) ) ;
#231 = CARTESIAN_POINT ( 'NONE',  ( 2.540000000008450600, 0.0000000000000000000, 23.75000000001947200 ) ) ;
#232 = CARTESIAN_POINT ( 'NONE',  ( 5.100000000009157700, 0.0000000000000000000, 25.40000000001925100 ) ) ;
#233 = CIRCLE ( 'NONE', #220, 12.69999999998075100 ) ;
#234 = DIRECTION ( 'NONE',  ( -1.000000000000000000, 0.0000000000000000000, 0.0000000000000000000 ) ) ;
#235 = ADVANCED_FACE ( 'NONE', ( #45, #244 ), #66, .F. ) ;
#236 = DIRECTION ( 'NONE',  ( 0.0000000000000000000, 0.0000000000000000000, -1.000000000000000000 ) ) ;
#237 = ORIENTED_EDGE ( 'NONE', *, *, #191, .T. ) ;
#238 = DIRECTION ( 'NONE',  ( 1.000000000000000000, 0.0000000000000000000, 0.0000000000000000000 ) ) ;
#239 = STYLED_ITEM ( 'NONE', ( #270 ), #305 ) ;
#240 = EDGE_CURVE ( 'NONE', #242, #242, #44, .T. ) ;
#241 = FILL_AREA_STYLE ('',( #283 ) ) ;
#242 = VERTEX_POINT ( 'NONE', #262 ) ;
#243 = EDGE_LOOP ( 'NONE', ( #327 ) ) ;
#244 = FACE_OUTER_BOUND ( 'NONE', #72, .T. ) ;
#245 = EDGE_LOOP ( 'NONE', ( #314 ) ) ;
#246 = AXIS2_PLACEMENT_3D ( 'NONE', #155, #89, #152 ) ;
#247 = DIRECTION ( 'NONE',  ( -1.000000000000000000, -0.0000000000000000000, -0.0000000000000000000 ) ) ;
#248 = DIRECTION ( 'NONE',  ( -1.000000000000000000, 0.0000000000000000000, 0.0000000000000000000 ) ) ;
#249 = VERTEX_POINT ( 'NONE', #37 ) ;
#250 = EDGE_LOOP ( 'NONE', ( #289 ) ) ;
#251 = DIRECTION ( 'NONE',  ( -1.000000000000000000, 0.0000000000000000000, 0.0000000000000000000 ) ) ;
#252 = EDGE_CURVE ( 'NONE', #193, #193, #338, .T. ) ;
#253 = PLANE ( 'NONE',  #161 ) ;
#254 = DIRECTION ( 'NONE',  ( 1.000000000000000000, -0.0000000000000000000, 0.0000000000000000000 ) ) ;
#255 = ORIENTED_EDGE ( 'NONE', *, *, #259, .F. ) ;
#256 = FACE_OUTER_BOUND ( 'NONE', #162, .T. ) ;
#257 = DIRECTION ( 'NONE',  ( 0.0000000000000000000, 0.0000000000000000000, 1.000000000000000000 ) ) ;
#258 = DIRECTION ( 'NONE',  ( 0.0000000000000000000, 0.0000000000000000000, -1.000000000000000000 ) ) ;
#259 = EDGE_CURVE ( 'NONE', #165, #165, #347, .T. ) ;
#260 = CIRCLE ( 'NONE', #68, 13.08000000000000000 ) ;
#261 = DIRECTION ( 'NONE',  ( 0.0000000000000000000, 0.0000000000000000000, -1.000000000000000000 ) ) ;
#262 = CARTESIAN_POINT ( 'NONE',  ( 0.0000000000000000000, 0.0000000000000000000, -26.16000000000000000 ) ) ;
#263 = ORIENTED_EDGE ( 'NONE', *, *, #170, .F. ) ;
#264 = CARTESIAN_POINT ( 'NONE',  ( 37.35999999999999900, 0.0000000000000000000, 11.05000000000000100 ) ) ;
#265 = FACE_BOUND ( 'NONE', #346, .T. ) ;
#266 =( NAMED_UNIT ( * ) SI_UNIT ( $, .STERADIAN. ) SOLID_ANGLE_UNIT ( ) );
#267 = AXIS2_PLACEMENT_3D ( 'NONE', #53, #201, #257 ) ;
#268 = FACE_OUTER_BOUND ( 'NONE', #304, .T. ) ;
#269 = ORIENTED_EDGE ( 'NONE', *, *, #107, .F. ) ;
#270 = PRESENTATION_STYLE_ASSIGNMENT (( #205 ) ) ;
#271 = DIRECTION ( 'NONE',  ( 0.0000000000000000000, 0.0000000000000000000, 1.000000000000000000 ) ) ;
#272 = ORIENTED_EDGE ( 'NONE', *, *, #170, .T. ) ;
#273 = PRODUCT_DEFINITION_CONTEXT ( 'detailed design', #19, 'design' ) ;
#274 = AXIS2_PLACEMENT_3D ( 'NONE', #307, #306, #276 ) ;
#275 = EDGE_LOOP ( 'NONE', ( #5 ) ) ;
#276 = DIRECTION ( 'NONE',  ( 0.0000000000000000000, 0.0000000000000000000, 1.000000000000000000 ) ) ;
#277 = CONICAL_SURFACE ( 'NONE', #15, 37.45000000000405300, 1.308996939000000000 ) ;
#278 = DIRECTION ( 'NONE',  ( 1.000000000000000000, -0.0000000000000000000, 0.0000000000000000000 ) ) ;
#279 = DIRECTION ( 'NONE',  ( 0.0000000000000000000, 0.0000000000000000000, -1.000000000000000000 ) ) ;
#280 = ADVANCED_BREP_SHAPE_REPRESENTATION ( 'FULLVAC RC1KF5025', ( #305, #92 ), #344 ) ;
#281 = CARTESIAN_POINT ( 'NONE',  ( 31.79999999999084900, 0.0000000000000000000, 0.0000000000000000000 ) ) ;
#282 = DIRECTION ( 'NONE',  ( -1.000000000000000000, -0.0000000000000000000, -0.0000000000000000000 ) ) ;
#283 = FILL_AREA_STYLE_COLOUR ( '', #139 ) ;
#284 = ORIENTED_EDGE ( 'NONE', *, *, #252, .T. ) ;
#285 = SURFACE_STYLE_FILL_AREA ( #60 ) ;
#286 = CARTESIAN_POINT ( 'NONE',  ( 31.80000000000000100, 0.0000000000000000000, 0.0000000000000000000 ) ) ;
#287 = AXIS2_PLACEMENT_3D ( 'NONE', #208, #288, #236 ) ;
#288 = DIRECTION ( 'NONE',  ( 1.000000000000000000, 0.0000000000000000000, 0.0000000000000000000 ) ) ;
#289 = ORIENTED_EDGE ( 'NONE', *, *, #119, .F. ) ;
#290 = ADVANCED_FACE ( 'NONE', ( #324, #11 ), #226, .T. ) ;
#291 = AXIS2_PLACEMENT_3D ( 'NONE', #84, #302, #31 ) ;
#292 = EDGE_LOOP ( 'NONE', ( #178 ) ) ;
#293 = PRODUCT ( 'FULLVAC RC1KF5025', 'FULLVAC RC1KF5025', '', ( #319 ) ) ;
#294 = FACE_OUTER_BOUND ( 'NONE', #309, .T. ) ;
#295 = EDGE_CURVE ( 'NONE', #108, #108, #156, .T. ) ;
#296 = EDGE_LOOP ( 'NONE', ( #154 ) ) ;
#297 = AXIS2_PLACEMENT_3D ( 'NONE', #112, #229, #56 ) ;
#298 = DIRECTION ( 'NONE',  ( -1.000000000000000000, 0.0000000000000000000, 0.0000000000000000000 ) ) ;
#299 = DIRECTION ( 'NONE',  ( 1.000000000000000000, -0.0000000000000000000, -0.0000000000000000000 ) ) ;
#300 = DIRECTION ( 'NONE',  ( 1.000000000000000000, 0.0000000000000000000, 0.0000000000000000000 ) ) ;
#301 = FACE_OUTER_BOUND ( 'NONE', #22, .T. ) ;
#302 = DIRECTION ( 'NONE',  ( -1.000000000000000000, -0.0000000000000000000, -0.0000000000000000000 ) ) ;
#303 = DIRECTION ( 'NONE',  ( 0.0000000000000000000, 0.0000000000000000000, -1.000000000000000000 ) ) ;
#304 = EDGE_LOOP ( 'NONE', ( #269 ) ) ;
#305 = MANIFOLD_SOLID_BREP ( '\X2\5BE69AD4\X0\2', #40 ) ;
#306 = DIRECTION ( 'NONE',  ( -1.000000000000000000, 0.0000000000000000000, 0.0000000000000000000 ) ) ;
#307 = CARTESIAN_POINT ( 'NONE',  ( 37.35999999999999900, 0.0000000000000000000, 0.0000000000000000000 ) ) ;
#308 = DIRECTION ( 'NONE',  ( 0.0000000000000000000, 0.0000000000000000000, -1.000000000000000000 ) ) ;
#309 = EDGE_LOOP ( 'NONE', ( #263 ) ) ;
#310 = FACE_OUTER_BOUND ( 'NONE', #292, .T. ) ;
#311 = FILL_AREA_STYLE_COLOUR ( '', #132 ) ;
#312 = CARTESIAN_POINT ( 'NONE',  ( 37.35999999999999900, 0.0000000000000000000, 13.08000000000000000 ) ) ;
#313 = EDGE_CURVE ( 'NONE', #95, #95, #73, .T. ) ;
#314 = ORIENTED_EDGE ( 'NONE', *, *, #125, .T. ) ;
#315 = FACE_BOUND ( 'NONE', #222, .T. ) ;
#316 =( NAMED_UNIT ( * ) PLANE_ANGLE_UNIT ( ) SI_UNIT ( $, .RADIAN. ) );
#317 = FACE_OUTER_BOUND ( 'NONE', #85, .T. ) ;
#318 = CIRCLE ( 'NONE', #267, 23.75000000001947200 ) ;
#319 = PRODUCT_CONTEXT ( 'NONE', #214, 'mechanical' ) ;
#320 = ADVANCED_FACE ( 'NONE', ( #294, #256 ), #223, .T. ) ;
#321 = AXIS2_PLACEMENT_3D ( 'NONE', #118, #234, #65 ) ;
#322 = ORIENTED_EDGE ( 'NONE', *, *, #252, .F. ) ;
#323 = DIRECTION ( 'NONE',  ( 0.0000000000000000000, 0.0000000000000000000, -1.000000000000000000 ) ) ;
#324 = FACE_OUTER_BOUND ( 'NONE', #80, .T. ) ;
#325 = AXIS2_PLACEMENT_3D ( 'NONE', #110, #35, #55 ) ;
#326 = DIRECTION ( 'NONE',  ( 0.0000000000000000000, 0.0000000000000000000, -1.000000000000000000 ) ) ;
#327 = ORIENTED_EDGE ( 'NONE', *, *, #191, .F. ) ;
#328 = EDGE_CURVE ( 'NONE', #71, #71, #149, .T. ) ;
#329 = PLANE ( 'NONE',  #349 ) ;
#330 = AXIS2_PLACEMENT_3D ( 'NONE', #286, #211, #59 ) ;
#331 = CARTESIAN_POINT ( 'NONE',  ( 5.100000000009157700, 0.0000000000000000000, 0.0000000000000000000 ) ) ;
#332 = DIRECTION ( 'NONE',  ( 1.000000000000000000, -0.0000000000000000000, 0.0000000000000000000 ) ) ;
#333 = CONICAL_SURFACE ( 'NONE', #297, 19.95000000000412400, 1.308996939000000900 ) ;
#334 =( NAMED_UNIT ( * ) PLANE_ANGLE_UNIT ( ) SI_UNIT ( $, .RADIAN. ) );
#335 = CARTESIAN_POINT ( 'NONE',  ( 31.80000000000000100, 0.0000000000000000000, 11.05000000000000100 ) ) ;
#336 = DIRECTION ( 'NONE',  ( -1.000000000000000000, 0.0000000000000000000, 0.0000000000000000000 ) ) ;
#337 = EDGE_LOOP ( 'NONE', ( #188 ) ) ;
#338 = CIRCLE ( 'NONE', #30, 37.45000000000405300 ) ;
#339 = CARTESIAN_POINT ( 'NONE',  ( 3.200000000015086800, 0.0000000000000000000, -37.45000000000405300 ) ) ;
#340 = EDGE_LOOP ( 'NONE', ( #24 ) ) ;
#341 = ADVANCED_FACE ( 'NONE', ( #317, #187 ), #136, .T. ) ;
#342 = AXIS2_PLACEMENT_3D ( 'NONE', #106, #299, #102 ) ;
#343 = DIRECTION ( 'NONE',  ( 0.0000000000000000000, 0.0000000000000000000, 1.000000000000000000 ) ) ;
#344 =( GEOMETRIC_REPRESENTATION_CONTEXT ( 3 ) GLOBAL_UNCERTAINTY_ASSIGNED_CONTEXT ( ( #145 ) ) GLOBAL_UNIT_ASSIGNED_CONTEXT ( ( #43, #94, #128 ) ) REPRESENTATION_CONTEXT ( 'NONE', 'WORKASPACE' ) );
#345 = VERTEX_POINT ( 'NONE', #312 ) ;
#346 = EDGE_LOOP ( 'NONE', ( #100 ) ) ;
#347 = CIRCLE ( 'NONE', #321, 19.94999999999999900 ) ;
#348 = AXIS2_PLACEMENT_3D ( 'NONE', #101, #300, #352 ) ;
#349 = AXIS2_PLACEMENT_3D ( 'NONE', #227, #332, #258 ) ;
#350 = DIRECTION ( 'NONE',  ( 0.0000000000000000000, 0.0000000000000000000, 1.000000000000000000 ) ) ;
#351 = EDGE_LOOP ( 'NONE', ( #284 ) ) ;
#352 = DIRECTION ( 'NONE',  ( 0.0000000000000000000, 0.0000000000000000000, -1.000000000000000000 ) ) ;
#353 = VERTEX_POINT ( 'NONE', #116 ) ;
#354 = ORIENTED_EDGE ( 'NONE', *, *, #240, .F. ) ;
ENDSEC;
END-ISO-10303-21;
